7me7 - Keq [guitar tab]

Post Reply
User avatar
dream_th
Administrator
Posts: 5525
Joined: Sat Dec 13, 2003 2:55 am
Contact:

7me7 - Keq [guitar tab]

Post by dream_th »

Po mendoj me i qit secilen kange n'teme t'veqant, edhe me rregullu pak formatin.

[Riff]
e|-----------------------|----------------------|
B|-----------------------|----------------------|
G|-----------------------|----------------------|
D|---10--10----6--6--6---|---3--2--2--3--2--3---|
A|---10--10----6--6--6---|---3--3--2--3--2--3---|
E|---8---8-----4--4--4---|---1--1--0--1--0--1---|


[Intro]
e|-------------------|--------------------|-----------------|--8-----8-----8-----8--|
B|--9--8--7--8-------|--------------------|--9--8--7--8--8--|-----8-----8-----8-----|
G|--------------8--\-|--5--5--4--5--4--5--|-----------------|-----------------------|
D|-------------------|--------------------|-----------------|-----------------------|
A|-------------------|--------------------|-----------------|-----------------------|
E|-------------------|--------------------|-----------------|-----------------------|

e|-----------------/--11--10--|-----10-----10-----8-----|-------------------|-----------------------|
B|--9--8--7--8--8-------------|--8------8------8-----8--|--9--8--7--8-------|-----------------------|
G|----------------------------|-------------------------|--------------8--\-|--5--5--4--5--5--4--5--|
D|----------------------------|-------------------------|-------------------|-----------------------|
A|----------------------------|-------------------------|-------------------|-----------------------|
E|----------------------------|-------------------------|-------------------|-----------------------|

[extra pjese, perseritet]
e|-------------------------|-------------------------|
B|-----7--8----7--8-----7--|--8-----7--8-----7--8----|
G|---5-------5-------5-----|-----5--------5----------|
D|-------------------------|-------------------------|
A|-------------------------|-------------------------|
E|-------------------------|-------------------------|


eelir
Posts: 4
Joined: Tue Dec 03, 2019 9:40 am

Re: 7me7 - Keq [guitar tab]

Post by eelir »

Ose me e bo me artist/band.

Post Reply